ISO-10303-21;
HEADER;
FILE_DESCRIPTION (( 'STEP AP203' ),
    '1' );
FILE_NAME ('250805 STEP 1-400359-00_2748.STEP',
    '2025-08-05T06:01:48',
    ( '' ),
    ( '' ),
    'SwSTEP 2.0',
    'SolidWorks 2024',
    '' );
FILE_SCHEMA (( 'CONFIG_CONTROL_DESIGN' ));
ENDSEC;

DATA;
#1 = CC_DESIGN_PERSON_AND_ORGANIZATION_ASSIGNMENT ( #144, #184, ( #66 ) ) ;
#2 = ORGANIZATION ( 'UNSPECIFIED', 'UNSPECIFIED', '' ) ;
#3 = APPROVAL ( #81, 'UNSPECIFIED' ) ;
#4 = ORIENTED_EDGE ( 'NONE', *, *, #159, .T. ) ;
#5 = ADVANCED_FACE ( 'NONE', ( #182, #27 ), #215, .T. ) ;
#6 = DIRECTION ( 'NONE',  ( 1.387778780781445922E-16, -1.000000000000000000, 0.000000000000000000 ) ) ;
#7 = PRODUCT_DEFINITION_SHAPE ( 'NONE', 'NONE',  #66 ) ;
#8 = ORIENTED_EDGE ( 'NONE', *, *, #31, .F. ) ;
#9 = DIRECTION ( 'NONE',  ( 0.000000000000000000, 0.000000000000000000, 1.000000000000000000 ) ) ;
#10 = DIRECTION ( 'NONE',  ( -1.000000000000000000, -0.000000000000000000, -0.000000000000000000 ) ) ;
#11 = AXIS2_PLACEMENT_3D ( 'NONE', #56, #148, #134 ) ;
#12 = CALENDAR_DATE ( 2025, 5, 8 ) ;
#13 = DIRECTION ( 'NONE',  ( 1.387778780781446169E-16, -1.000000000000000000, 0.000000000000000000 ) ) ;
#14 = AXIS2_PLACEMENT_3D ( 'NONE', #204, #129, #37 ) ;
#15 = COORDINATED_UNIVERSAL_TIME_OFFSET ( 2, 0, .AHEAD. ) ;
#16 = DATE_TIME_ROLE ( 'creation_date' ) ;
#17 = AXIS2_PLACEMENT_3D ( 'NONE', #23, #91, #147 ) ;
#18 = CC_DESIGN_PERSON_AND_ORGANIZATION_ASSIGNMENT ( #65, #212, ( #175 ) ) ;
#19 = EDGE_LOOP ( 'NONE', ( #8 ) ) ;
#20 = EDGE_CURVE ( 'NONE', #154, #154, #120, .T. ) ;
#21 = FACE_OUTER_BOUND ( 'NONE', #54, .T. ) ;
#22 = ORIENTED_EDGE ( 'NONE', *, *, #20, .F. ) ;
#23 = CARTESIAN_POINT ( 'NONE',  ( 0.000000000000000000, 0.000000000000000000, 0.000000000000000000 ) ) ;
#24 = PERSON_AND_ORGANIZATION_ROLE ( 'creator' ) ;
#25 = AXIS2_PLACEMENT_3D ( 'NONE', #193, #58, #6 ) ;
#26 = VERTEX_POINT ( 'NONE', #82 ) ;
#27 = FACE_OUTER_BOUND ( 'NONE', #125, .T. ) ;
#28 = PERSON_AND_ORGANIZATION ( #126, #2 ) ;
#29 = SECURITY_CLASSIFICATION ( '', '', #133 ) ;
#30 = CARTESIAN_POINT ( 'NONE',  ( 21.92836282905964751, -41.96844278010115659, 0.000000000000000000 ) ) ;
#31 = EDGE_CURVE ( 'NONE', #98, #98, #39, .T. ) ;
#32 = CARTESIAN_POINT ( 'NONE',  ( 0.000000000000000000, 0.000000000000000000, 0.000000000000000000 ) ) ;
#33 = APPROVAL_STATUS ( 'not_yet_approved' ) ;
#34 = APPROVAL_STATUS ( 'not_yet_approved' ) ;
#35 = APPROVAL_PERSON_ORGANIZATION ( #172, #45, #158 ) ;
#36 = CALENDAR_DATE ( 2025, 5, 8 ) ;
#37 = DIRECTION ( 'NONE',  ( -8.266799342859134367E-17, 1.000000000000000000, 0.000000000000000000 ) ) ;
#38 = ORIENTED_EDGE ( 'NONE', *, *, #117, .F. ) ;
#39 = CIRCLE ( 'NONE', #103, 49.99999999999999289 ) ;
#40 = UNCERTAINTY_MEASURE_WITH_UNIT (LENGTH_MEASURE( 1.000000000000000082E-05 ), #61, 'distance_accuracy_value', 'NONE');
#41 = ORIENTED_EDGE ( 'NONE', *, *, #83, .F. ) ;
#42 = FACE_OUTER_BOUND ( 'NONE', #128, .T. ) ;
#43 = DATE_AND_TIME ( #163, #187 ) ;
#44 = CLOSED_SHELL ( 'NONE', ( #145, #188, #153, #138, #127, #5, #97 ) ) ;
#45 = APPROVAL ( #34, 'UNSPECIFIED' ) ;
#46 = CARTESIAN_POINT ( 'NONE',  ( 0.000000000000000000, 0.000000000000000000, 0.000000000000000000 ) ) ;
#47 = LOCAL_TIME ( 9, 1, 48.00000000000000000, #15 ) ;
#48 = CC_DESIGN_PERSON_AND_ORGANIZATION_ASSIGNMENT ( #115, #183, ( #29 ) ) ;
#49 = LOCAL_TIME ( 9, 1, 48.00000000000000000, #102 ) ;
#50 = PERSON_AND_ORGANIZATION ( #126, #2 ) ;
#51 = TOROIDAL_SURFACE ( 'NONE', #174, 44.26657610945808585, 3.000000000000004441 ) ;
#52 = APPROVAL ( #33, 'UNSPECIFIED' ) ;
#53 = PLANE ( 'NONE',  #210 ) ;
#54 = EDGE_LOOP ( 'NONE', ( #41 ) ) ;
#55 = FACE_OUTER_BOUND ( 'NONE', #131, .T. ) ;
#56 = CARTESIAN_POINT ( 'NONE',  ( 18.07163717094037025, 2.213064170350622789E-15, 0.000000000000000000 ) ) ;
#57 = PRODUCT_RELATED_PRODUCT_CATEGORY ( 'detail', '', ( #177 ) ) ;
#58 = DIRECTION ( 'NONE',  ( -1.000000000000000000, -1.224606353822377258E-16, -0.000000000000000000 ) ) ;
#59 = ADVANCED_BREP_SHAPE_REPRESENTATION ( '250805 STEP 1-400359-00_2748', ( #121, #67 ), #168 ) ;
#60 = CARTESIAN_POINT ( 'NONE',  ( 18.07163717094037381, -41.96844278010115659, 0.000000000000000000 ) ) ;
#61 =( LENGTH_UNIT ( ) NAMED_UNIT ( * ) SI_UNIT ( .MILLI., .METRE. ) );
#62 = APPROVAL_PERSON_ORGANIZATION ( #28, #3, #194 ) ;
#63 = DIRECTION ( 'NONE',  ( 1.000000000000000000, 0.000000000000000000, 0.000000000000000000 ) ) ;
#64 = DATE_AND_TIME ( #156, #47 ) ;
#65 = PERSON_AND_ORGANIZATION ( #126, #2 ) ;
#66 = PRODUCT_DEFINITION ( 'UNKNOWN', '', #175, #101 ) ;
#67 = AXIS2_PLACEMENT_3D ( 'NONE', #32, #68, #63 ) ;
#68 = DIRECTION ( 'NONE',  ( 0.000000000000000000, 0.000000000000000000, 1.000000000000000000 ) ) ;
#69 = COORDINATED_UNIVERSAL_TIME_OFFSET ( 2, 0, .AHEAD. ) ;
#70 = AXIS2_PLACEMENT_3D ( 'NONE', #181, #136, #206 ) ;
#71 = ORIENTED_EDGE ( 'NONE', *, *, #117, .T. ) ;
#72 = CYLINDRICAL_SURFACE ( 'NONE', #17, 49.99999999999999289 ) ;
#73 = CC_DESIGN_DATE_AND_TIME_ASSIGNMENT ( #140, #16, ( #66 ) ) ;
#74 = EDGE_LOOP ( 'NONE', ( #109 ) ) ;
#75 = DIRECTION ( 'NONE',  ( 0.000000000000000000, 0.000000000000000000, 1.000000000000000000 ) ) ;
#76 = EDGE_LOOP ( 'NONE', ( #71 ) ) ;
#77 = APPROVAL_DATE_TIME ( #43, #3 ) ;
#78 = DIRECTION ( 'NONE',  ( -1.000000000000000000, -0.000000000000000000, -0.000000000000000000 ) ) ;
#79 = AXIS2_PLACEMENT_3D ( 'NONE', #111, #201, #189 ) ;
#80 = COORDINATED_UNIVERSAL_TIME_OFFSET ( 2, 0, .AHEAD. ) ;
#81 = APPROVAL_STATUS ( 'not_yet_approved' ) ;
#82 = CARTESIAN_POINT ( 'NONE',  ( 40.00000000000000000, 0.000000000000000000, 49.99999999999999289 ) ) ;
#83 = EDGE_CURVE ( 'NONE', #26, #26, #88, .T. ) ;
#84 = APPROVAL_DATE_TIME ( #173, #45 ) ;
#85 = MECHANICAL_CONTEXT ( 'NONE', #124, 'mechanical' ) ;
#86 = PERSON_AND_ORGANIZATION ( #126, #2 ) ;
#87 =( NAMED_UNIT ( * ) PLANE_ANGLE_UNIT ( ) SI_UNIT ( $, .RADIAN. ) );
#88 = CIRCLE ( 'NONE', #105, 49.99999999999999289 ) ;
#89 = ORIENTED_EDGE ( 'NONE', *, *, #107, .F. ) ;
#90 = FACE_OUTER_BOUND ( 'NONE', #76, .T. ) ;
#91 = DIRECTION ( 'NONE',  ( -1.000000000000000000, -0.000000000000000000, -0.000000000000000000 ) ) ;
#92 = CARTESIAN_POINT ( 'NONE',  ( 0.000000000000000000, 0.000000000000000000, 0.000000000000000000 ) ) ;
#93 = CC_DESIGN_SECURITY_CLASSIFICATION ( #29, ( #175 ) ) ;
#94 = CC_DESIGN_PERSON_AND_ORGANIZATION_ASSIGNMENT ( #198, #143, ( #177 ) ) ;
#95 = ORIENTED_EDGE ( 'NONE', *, *, #83, .T. ) ;
#96 = CARTESIAN_POINT ( 'NONE',  ( 21.92836282905964396, 2.685361244938887822E-15, 0.000000000000000000 ) ) ;
#97 = ADVANCED_FACE ( 'NONE', ( #42, #151 ), #51, .F. ) ;
#98 = VERTEX_POINT ( 'NONE', #169 ) ;
#99 = APPROVAL_ROLE ( '' ) ;
#100 = AXIS2_PLACEMENT_3D ( 'NONE', #46, #10, #75 ) ;
#101 = DESIGN_CONTEXT ( 'detailed design', #209, 'design' ) ;
#102 = COORDINATED_UNIVERSAL_TIME_OFFSET ( 2, 0, .AHEAD. ) ;
#103 = AXIS2_PLACEMENT_3D ( 'NONE', #92, #162, #190 ) ;
#104 = ORIENTED_EDGE ( 'NONE', *, *, #159, .F. ) ;
#105 = AXIS2_PLACEMENT_3D ( 'NONE', #166, #78, #9 ) ;
#106 = ORIENTED_EDGE ( 'NONE', *, *, #20, .T. ) ;
#107 = EDGE_CURVE ( 'NONE', #213, #213, #130, .T. ) ;
#108 = DIRECTION ( 'NONE',  ( -1.000000000000000000, 0.000000000000000000, -0.000000000000000000 ) ) ;
#109 = ORIENTED_EDGE ( 'NONE', *, *, #31, .T. ) ;
#110 = EDGE_LOOP ( 'NONE', ( #95 ) ) ;
#111 = CARTESIAN_POINT ( 'NONE',  ( 0.000000000000000000, 24.50000000000000000, 0.000000000000000000 ) ) ;
#112 = CARTESIAN_POINT ( 'NONE',  ( 20.00000000000001066, 0.000000000000000000, 0.000000000000000000 ) ) ;
#113 = SHAPE_DEFINITION_REPRESENTATION ( #7, #59 ) ;
#114 = EDGE_LOOP ( 'NONE', ( #104 ) ) ;
#115 = PERSON_AND_ORGANIZATION ( #126, #2 ) ;
#116 = CARTESIAN_POINT ( 'NONE',  ( 31.50000000000001421, -49.99999999999997868, 0.000000000000000000 ) ) ;
#117 = EDGE_CURVE ( 'NONE', #207, #207, #200, .T. ) ;
#118 = AXIS2_PLACEMENT_3D ( 'NONE', #139, #195, #13 ) ;
#119 = FACE_OUTER_BOUND ( 'NONE', #110, .T. ) ;
#120 = CIRCLE ( 'NONE', #155, 41.96844278010115659 ) ;
#121 = MANIFOLD_SOLID_BREP ( 'DeleteFace6', #44 ) ;
#122 = APPLICATION_PROTOCOL_DEFINITION ( 'international standard', 'config_control_design', 1994, #124 ) ;
#123 = APPLICATION_PROTOCOL_DEFINITION ( 'international standard', 'config_control_design', 1994, #209 ) ;
#124 = APPLICATION_CONTEXT ( 'configuration controlled 3d designs of mechanical parts and assemblies' ) ;
#125 = EDGE_LOOP ( 'NONE', ( #38 ) ) ;
#126 = PERSON ( 'UNSPECIFIED', 'UNSPECIFIED', 'UNSPECIFIED', ('UNSPECIFIED'), ('UNSPECIFIED'), ('UNSPECIFIED') ) ;
#127 = ADVANCED_FACE ( 'NONE', ( #55, #165 ), #197, .T. ) ;
#128 = EDGE_LOOP ( 'NONE', ( #106 ) ) ;
#129 = DIRECTION ( 'NONE',  ( 1.000000000000000000, 1.224606353822377258E-16, 0.000000000000000000 ) ) ;
#130 = CIRCLE ( 'NONE', #11, 41.96844278010115659 ) ;
#131 = EDGE_LOOP ( 'NONE', ( #4 ) ) ;
#132 = DIRECTION ( 'NONE',  ( -1.000000000000000000, -1.224606353822377258E-16, -0.000000000000000000 ) ) ;
#133 = SECURITY_CLASSIFICATION_LEVEL ( 'unclassified' ) ;
#134 = DIRECTION ( 'NONE',  ( 8.266799342859134367E-17, -1.000000000000000000, 0.000000000000000000 ) ) ;
#135 = APPROVAL_PERSON_ORGANIZATION ( #50, #52, #99 ) ;
#136 = DIRECTION ( 'NONE',  ( -1.000000000000000000, -1.224606353822377258E-16, -0.000000000000000000 ) ) ;
#137 = CARTESIAN_POINT ( 'NONE',  ( 8.500000000000017764, -49.99999999999999289, 0.000000000000000000 ) ) ;
#138 = ADVANCED_FACE ( 'NONE', ( #164 ), #176, .F. ) ;
#139 = CARTESIAN_POINT ( 'NONE',  ( 31.50000000000000711, 3.857510014540489152E-15, 0.000000000000000000 ) ) ;
#140 = DATE_AND_TIME ( #199, #49 ) ;
#141 = APPROVAL_DATE_TIME ( #64, #52 ) ;
#142 = CIRCLE ( 'NONE', #118, 49.99999999999998579 ) ;
#143 = PERSON_AND_ORGANIZATION_ROLE ( 'design_owner' ) ;
#144 = PERSON_AND_ORGANIZATION ( #126, #2 ) ;
#145 = ADVANCED_FACE ( 'NONE', ( #21 ), #53, .F. ) ;
#146 = CC_DESIGN_APPROVAL ( #45, ( #66 ) ) ;
#147 = DIRECTION ( 'NONE',  ( 0.000000000000000000, 0.000000000000000000, 1.000000000000000000 ) ) ;
#148 = DIRECTION ( 'NONE',  ( -1.000000000000000000, -1.224606353822377258E-16, -0.000000000000000000 ) ) ;
#149 = CC_DESIGN_PERSON_AND_ORGANIZATION_ASSIGNMENT ( #86, #24, ( #175 ) ) ;
#150 = DIRECTION ( 'NONE',  ( -1.000000000000000000, -1.224606353822377258E-16, -0.000000000000000000 ) ) ;
#151 = FACE_OUTER_BOUND ( 'NONE', #186, .T. ) ;
#152 = DATE_AND_TIME ( #12, #161 ) ;
#153 = ADVANCED_FACE ( 'NONE', ( #178, #90 ), #72, .T. ) ;
#154 = VERTEX_POINT ( 'NONE', #30 ) ;
#155 = AXIS2_PLACEMENT_3D ( 'NONE', #96, #150, #208 ) ;
#156 = CALENDAR_DATE ( 2025, 5, 8 ) ;
#157 =( NAMED_UNIT ( * ) SI_UNIT ( $, .STERADIAN. ) SOLID_ANGLE_UNIT ( ) );
#158 = APPROVAL_ROLE ( '' ) ;
#159 = EDGE_CURVE ( 'NONE', #214, #214, #142, .T. ) ;
#160 = DIRECTION ( 'NONE',  ( -0.000000000000000000, 0.000000000000000000, 1.000000000000000000 ) ) ;
#161 = LOCAL_TIME ( 9, 1, 48.00000000000000000, #80 ) ;
#162 = DIRECTION ( 'NONE',  ( -1.000000000000000000, -0.000000000000000000, -0.000000000000000000 ) ) ;
#163 = CALENDAR_DATE ( 2025, 5, 8 ) ;
#164 = FACE_OUTER_BOUND ( 'NONE', #74, .T. ) ;
#165 = FACE_BOUND ( 'NONE', #202, .T. ) ;
#166 = CARTESIAN_POINT ( 'NONE',  ( 40.00000000000000000, 0.000000000000000000, 0.000000000000000000 ) ) ;
#167 = CYLINDRICAL_SURFACE ( 'NONE', #100, 49.99999999999999289 ) ;
#168 =( GEOMETRIC_REPRESENTATION_CONTEXT ( 3 ) GLOBAL_UNCERTAINTY_ASSIGNED_CONTEXT ( ( #40 ) ) GLOBAL_UNIT_ASSIGNED_CONTEXT ( ( #61, #87, #157 ) ) REPRESENTATION_CONTEXT ( 'NONE', 'WORKASPACE' ) );
#169 = CARTESIAN_POINT ( 'NONE',  ( 0.000000000000000000, 0.000000000000000000, -49.99999999999999289 ) ) ;
#170 = CC_DESIGN_DATE_AND_TIME_ASSIGNMENT ( #152, #196, ( #29 ) ) ;
#171 = LOCAL_TIME ( 9, 1, 48.00000000000000000, #69 ) ;
#172 = PERSON_AND_ORGANIZATION ( #126, #2 ) ;
#173 = DATE_AND_TIME ( #36, #171 ) ;
#174 = AXIS2_PLACEMENT_3D ( 'NONE', #112, #132, #211 ) ;
#175 = PRODUCT_DEFINITION_FORMATION_WITH_SPECIFIED_SOURCE ( 'ANY', '', #177, .NOT_KNOWN. ) ;
#176 = PLANE ( 'NONE',  #79 ) ;
#177 = PRODUCT ( '250805 STEP 1-400359-00_2748', '250805 STEP 1-400359-00_2748', '', ( #85 ) ) ;
#178 = FACE_OUTER_BOUND ( 'NONE', #19, .T. ) ;
#179 = CARTESIAN_POINT ( 'NONE',  ( 40.00000000000000000, 27.50000000000000000, 0.000000000000000000 ) ) ;
#180 = CC_DESIGN_APPROVAL ( #52, ( #175 ) ) ;
#181 = CARTESIAN_POINT ( 'NONE',  ( 8.500000000000010658, 1.040915400749022050E-15, 0.000000000000000000 ) ) ;
#182 = FACE_BOUND ( 'NONE', #203, .T. ) ;
#183 = PERSON_AND_ORGANIZATION_ROLE ( 'classification_officer' ) ;
#184 = PERSON_AND_ORGANIZATION_ROLE ( 'creator' ) ;
#185 = CC_DESIGN_APPROVAL ( #3, ( #29 ) ) ;
#186 = EDGE_LOOP ( 'NONE', ( #89 ) ) ;
#187 = LOCAL_TIME ( 9, 1, 48.00000000000000000, #191 ) ;
#188 = ADVANCED_FACE ( 'NONE', ( #119, #192 ), #167, .T. ) ;
#189 = DIRECTION ( 'NONE',  ( 0.000000000000000000, 0.000000000000000000, -1.000000000000000000 ) ) ;
#190 = DIRECTION ( 'NONE',  ( 0.000000000000000000, 0.000000000000000000, -1.000000000000000000 ) ) ;
#191 = COORDINATED_UNIVERSAL_TIME_OFFSET ( 2, 0, .AHEAD. ) ;
#192 = FACE_OUTER_BOUND ( 'NONE', #114, .T. ) ;
#193 = CARTESIAN_POINT ( 'NONE',  ( 8.500000000000010658, 1.040915400749022050E-15, 0.000000000000000000 ) ) ;
#194 = APPROVAL_ROLE ( '' ) ;
#195 = DIRECTION ( 'NONE',  ( -1.000000000000000000, -1.224606353822377258E-16, -0.000000000000000000 ) ) ;
#196 = DATE_TIME_ROLE ( 'classification_date' ) ;
#197 = CONICAL_SURFACE ( 'NONE', #14, 41.96844278010115659, 0.6981317007977334566 ) ;
#198 = PERSON_AND_ORGANIZATION ( #126, #2 ) ;
#199 = CALENDAR_DATE ( 2025, 5, 8 ) ;
#200 = CIRCLE ( 'NONE', #70, 49.99999999999999289 ) ;
#201 = DIRECTION ( 'NONE',  ( 1.000000000000000000, 0.000000000000000000, 0.000000000000000000 ) ) ;
#202 = EDGE_LOOP ( 'NONE', ( #22 ) ) ;
#203 = EDGE_LOOP ( 'NONE', ( #205 ) ) ;
#204 = CARTESIAN_POINT ( 'NONE',  ( 21.92836282905964396, 2.685361244938887822E-15, 0.000000000000000000 ) ) ;
#205 = ORIENTED_EDGE ( 'NONE', *, *, #107, .T. ) ;
#206 = DIRECTION ( 'NONE',  ( 1.387778780781445922E-16, -1.000000000000000000, 0.000000000000000000 ) ) ;
#207 = VERTEX_POINT ( 'NONE', #137 ) ;
#208 = DIRECTION ( 'NONE',  ( 8.266799342859134367E-17, -1.000000000000000000, 0.000000000000000000 ) ) ;
#209 = APPLICATION_CONTEXT ( 'configuration controlled 3d designs of mechanical parts and assemblies' ) ;
#210 = AXIS2_PLACEMENT_3D ( 'NONE', #179, #108, #160 ) ;
#211 = DIRECTION ( 'NONE',  ( 1.224606353822377258E-16, -1.000000000000000000, 0.000000000000000000 ) ) ;
#212 = PERSON_AND_ORGANIZATION_ROLE ( 'design_supplier' ) ;
#213 = VERTEX_POINT ( 'NONE', #60 ) ;
#214 = VERTEX_POINT ( 'NONE', #116 ) ;
#215 = CONICAL_SURFACE ( 'NONE', #25, 49.99999999999999289, 0.6981317007977341227 ) ;
ENDSEC;
END-ISO-10303-21;
